ISO-10303-21;
HEADER;
FILE_DESCRIPTION (( 'STEP AP203' ),
    '1' );
FILE_NAME ('Q-AZHWP-10-405-M.STEP',
    '2020-12-22T09:05:47',
    ( '' ),
    ( '' ),
    'SwSTEP 2.0',
    'SolidWorks 2020',
    '' );
FILE_SCHEMA (( 'CONFIG_CONTROL_DESIGN' ));
ENDSEC;

DATA;
#1 = DIRECTION ( 'NONE',  ( 0.000000000000000000, 0.000000000000000000, 1.000000000000000000 ) ) ;
#2 =( NAMED_UNIT ( * ) PLANE_ANGLE_UNIT ( ) SI_UNIT ( $, .RADIAN. ) );
#3 = ORIENTED_EDGE ( 'NONE', *, *, #264, .T. ) ;
#4 = PLANE ( 'NONE',  #112 ) ;
#5 = PERSON_AND_ORGANIZATION_ROLE ( 'creator' ) ;
#6 = MANIFOLD_SOLID_BREP ( 'Ðý×', #140 ) ;
#7 = PERSON_AND_ORGANIZATION ( #218, #91 ) ;
#8 = LINE ( 'NONE', #109, #260 ) ;
#9 = CALENDAR_DATE ( 2020, 22, 12 ) ;
#10 = CARTESIAN_POINT ( 'NONE',  ( 1.250000000000000444, 0.000000000000000000, 5.000000000000000000 ) ) ;
#11 = AXIS2_PLACEMENT_3D ( 'NONE', #298, #116, #87 ) ;
#12 = DIRECTION ( 'NONE',  ( -1.000000000000000000, -0.000000000000000000, -0.000000000000000000 ) ) ;
#13 = DIRECTION ( 'NONE',  ( 1.000000000000000000, 0.000000000000000000, 0.000000000000000000 ) ) ;
#14 = ORIENTED_EDGE ( 'NONE', *, *, #66, .F. ) ;
#15 = ADVANCED_FACE ( 'NONE', ( #197 ), #43, .F. ) ;
#16 = LOCAL_TIME ( 17, 5, 47.00000000000000000, #152 ) ;
#17 =( LENGTH_UNIT ( ) NAMED_UNIT ( * ) SI_UNIT ( .MILLI., .METRE. ) );
#18 = ORIENTED_EDGE ( 'NONE', *, *, #81, .T. ) ;
#19 = ORIENTED_EDGE ( 'NONE', *, *, #148, .F. ) ;
#20 = CC_DESIGN_APPROVAL ( #86, ( #207 ) ) ;
#21 = EDGE_LOOP ( 'NONE', ( #154, #40 ) ) ;
#22 = APPROVAL_STATUS ( 'not_yet_approved' ) ;
#23 = ORIENTED_EDGE ( 'NONE', *, *, #317, .F. ) ;
#24 = EDGE_LOOP ( 'NONE', ( #19, #272, #192, #200 ) ) ;
#25 = CARTESIAN_POINT ( 'NONE',  ( 3.000000000000000000, 12.69999999999999929, 0.000000000000000000 ) ) ;
#26 = LOCAL_TIME ( 17, 5, 47.00000000000000000, #319 ) ;
#27 = DIRECTION ( 'NONE',  ( -1.000000000000000000, 0.000000000000000000, -0.000000000000000000 ) ) ;
#28 = CARTESIAN_POINT ( 'NONE',  ( -3.000000000000000000, 0.000000000000000000, 5.000000000000000000 ) ) ;
#29 = CARTESIAN_POINT ( 'NONE',  ( -1.250000000000000222, 0.000000000000000000, 0.000000000000000000 ) ) ;
#30 = FACE_OUTER_BOUND ( 'NONE', #308, .T. ) ;
#31 = ADVANCED_FACE ( 'NONE', ( #202, #147 ), #123, .F. ) ;
#32 = DIRECTION ( 'NONE',  ( -1.000000000000000000, -0.000000000000000000, -0.000000000000000000 ) ) ;
#33 = LOCAL_TIME ( 17, 5, 47.00000000000000000, #71 ) ;
#34 = CARTESIAN_POINT ( 'NONE',  ( -3.000000000000000000, 0.000000000000000000, 12.69999999999999929 ) ) ;
#35 = DIRECTION ( 'NONE',  ( -1.000000000000000000, -0.000000000000000000, -0.000000000000000000 ) ) ;
#36 = VERTEX_POINT ( 'NONE', #307 ) ;
#37 = DIRECTION ( 'NONE',  ( -1.000000000000000000, -0.000000000000000000, -0.000000000000000000 ) ) ;
#38 = ORIENTED_EDGE ( 'NONE', *, *, #175, .T. ) ;
#39 = DIRECTION ( 'NONE',  ( -1.000000000000000000, -0.000000000000000000, -0.000000000000000000 ) ) ;
#40 = ORIENTED_EDGE ( 'NONE', *, *, #194, .F. ) ;
#41 =( NAMED_UNIT ( * ) SI_UNIT ( $, .STERADIAN. ) SOLID_ANGLE_UNIT ( ) );
#42 = ORIENTED_EDGE ( 'NONE', *, *, #148, .T. ) ;
#43 = CYLINDRICAL_SURFACE ( 'NONE', #173, 5.000000000000000888 ) ;
#44 = EDGE_LOOP ( 'NONE', ( #23, #42, #204, #172 ) ) ;
#45 = VERTEX_POINT ( 'NONE', #73 ) ;
#46 = CIRCLE ( 'NONE', #310, 5.000000000000001776 ) ;
#47 = PERSON_AND_ORGANIZATION_ROLE ( 'creator' ) ;
#48 = EDGE_CURVE ( 'NONE', #45, #179, #98, .T. ) ;
#49 = ORIENTED_EDGE ( 'NONE', *, *, #264, .F. ) ;
#50 = AXIS2_PLACEMENT_3D ( 'NONE', #322, #67, #92 ) ;
#51 = DATE_AND_TIME ( #9, #243 ) ;
#52 = EDGE_CURVE ( 'NONE', #165, #90, #203, .T. ) ;
#53 = CARTESIAN_POINT ( 'NONE',  ( -1.614212418857619014, 0.000000000000000000, 0.000000000000000000 ) ) ;
#54 = CARTESIAN_POINT ( 'NONE',  ( 1.250000000000000444, 6.123233995736766282E-16, -5.000000000000000000 ) ) ;
#55 = PERSON_AND_ORGANIZATION ( #218, #91 ) ;
#56 = FACE_OUTER_BOUND ( 'NONE', #245, .T. ) ;
#57 = AXIS2_PLACEMENT_3D ( 'NONE', #80, #206, #181 ) ;
#58 = PLANE ( 'NONE',  #57 ) ;
#59 = CARTESIAN_POINT ( 'NONE',  ( -1.250000000000000222, 5.000000000000000000, 0.000000000000000000 ) ) ;
#60 = CYLINDRICAL_SURFACE ( 'NONE', #286, 5.000000000000000888 ) ;
#61 = COORDINATED_UNIVERSAL_TIME_OFFSET ( 8, 0, .AHEAD. ) ;
#62 = CARTESIAN_POINT ( 'NONE',  ( -1.614212418857619014, 0.000000000000000000, 0.000000000000000000 ) ) ;
#63 = CC_DESIGN_PERSON_AND_ORGANIZATION_ASSIGNMENT ( #7, #5, ( #151 ) ) ;
#64 = ORIENTED_EDGE ( 'NONE', *, *, #317, .T. ) ;
#65 = CARTESIAN_POINT ( 'NONE',  ( -1.614212418857619014, 0.000000000000000000, 0.000000000000000000 ) ) ;
#66 = EDGE_CURVE ( 'NONE', #268, #301, #285, .T. ) ;
#67 = DIRECTION ( 'NONE',  ( -1.000000000000000000, -0.000000000000000000, -0.000000000000000000 ) ) ;
#68 = ORIENTED_EDGE ( 'NONE', *, *, #139, .F. ) ;
#69 = AXIS2_PLACEMENT_3D ( 'NONE', #53, #290, #213 ) ;
#70 = PERSON_AND_ORGANIZATION ( #218, #91 ) ;
#71 = COORDINATED_UNIVERSAL_TIME_OFFSET ( 8, 0, .AHEAD. ) ;
#72 = AXIS2_PLACEMENT_3D ( 'NONE', #137, #156, #184 ) ;
#73 = CARTESIAN_POINT ( 'NONE',  ( -1.250000000000000222, 6.123233995736767268E-16, -5.000000000000000888 ) ) ;
#74 = CARTESIAN_POINT ( 'NONE',  ( -3.000000000000000000, 0.000000000000000000, 0.000000000000000000 ) ) ;
#75 = CALENDAR_DATE ( 2020, 22, 12 ) ;
#76 =( GEOMETRIC_REPRESENTATION_CONTEXT ( 3 ) GLOBAL_UNCERTAINTY_ASSIGNED_CONTEXT ( ( #229 ) ) GLOBAL_UNIT_ASSIGNED_CONTEXT ( ( #17, #2, #41 ) ) REPRESENTATION_CONTEXT ( 'NONE', 'WORKASPACE' ) );
#77 = DIRECTION ( 'NONE',  ( -1.000000000000000000, -0.000000000000000000, -0.000000000000000000 ) ) ;
#78 = CARTESIAN_POINT ( 'NONE',  ( 3.000000000000000000, 1.555301434917138433E-15, -12.69999999999999929 ) ) ;
#79 = PRODUCT_DEFINITION_SHAPE ( 'NONE', 'NONE',  #207 ) ;
#80 = CARTESIAN_POINT ( 'NONE',  ( -3.000000000000000000, 5.000000000000000000, 0.000000000000000000 ) ) ;
#81 = EDGE_CURVE ( 'NONE', #301, #268, #273, .T. ) ;
#82 = CC_DESIGN_APPROVAL ( #124, ( #151 ) ) ;
#83 = CALENDAR_DATE ( 2020, 22, 12 ) ;
#84 = CARTESIAN_POINT ( 'NONE',  ( 1.250000000000000222, 5.000000000000000000, 0.000000000000000000 ) ) ;
#85 = ADVANCED_FACE ( 'NONE', ( #134, #261 ), #58, .F. ) ;
#86 = APPROVAL ( #22, 'UNSPECIFIED' ) ;
#87 = DIRECTION ( 'NONE',  ( 0.000000000000000000, 0.000000000000000000, 1.000000000000000000 ) ) ;
#88 = AXIS2_PLACEMENT_3D ( 'NONE', #74, #176, #281 ) ;
#89 = DIRECTION ( 'NONE',  ( 0.000000000000000000, 0.000000000000000000, 1.000000000000000000 ) ) ;
#90 = VERTEX_POINT ( 'NONE', #10 ) ;
#91 = ORGANIZATION ( 'UNSPECIFIED', 'UNSPECIFIED', '' ) ;
#92 = DIRECTION ( 'NONE',  ( 0.000000000000000000, 0.000000000000000000, 1.000000000000000000 ) ) ;
#93 = AXIS2_PLACEMENT_3D ( 'NONE', #25, #27, #228 ) ;
#94 = VECTOR ( 'NONE', #35, 1000.000000000000000 ) ;
#95 = APPLICATION_PROTOCOL_DEFINITION ( 'international standard', 'config_control_design', 1994, #313 ) ;
#96 = EDGE_LOOP ( 'NONE', ( #162, #64 ) ) ;
#97 = PERSON_AND_ORGANIZATION_ROLE ( 'design_owner' ) ;
#98 = LINE ( 'NONE', #174, #122 ) ;
#99 = DESIGN_CONTEXT ( 'detailed design', #313, 'design' ) ;
#100 = DIRECTION ( 'NONE',  ( -1.000000000000000000, -0.000000000000000000, -0.000000000000000000 ) ) ;
#101 = DIRECTION ( 'NONE',  ( -1.000000000000000000, -0.000000000000000000, -0.000000000000000000 ) ) ;
#102 = EDGE_CURVE ( 'NONE', #126, #179, #277, .T. ) ;
#103 = ADVANCED_FACE ( 'NONE', ( #293 ), #237, .F. ) ;
#104 = APPROVAL_STATUS ( 'not_yet_approved' ) ;
#105 = PERSON_AND_ORGANIZATION_ROLE ( 'design_supplier' ) ;
#106 = DIRECTION ( 'NONE',  ( 0.000000000000000000, 0.000000000000000000, -1.000000000000000000 ) ) ;
#107 = PERSON_AND_ORGANIZATION_ROLE ( 'classification_officer' ) ;
#108 = ADVANCED_FACE ( 'NONE', ( #259 ), #262, .F. ) ;
#109 = CARTESIAN_POINT ( 'NONE',  ( -1.614212418857619014, 0.000000000000000000, 5.000000000000000888 ) ) ;
#110 = SECURITY_CLASSIFICATION_LEVEL ( 'unclassified' ) ;
#111 = DIRECTION ( 'NONE',  ( 0.000000000000000000, 0.000000000000000000, 1.000000000000000000 ) ) ;
#112 = AXIS2_PLACEMENT_3D ( 'NONE', #84, #256, #133 ) ;
#113 = FACE_OUTER_BOUND ( 'NONE', #24, .T. ) ;
#114 = ORIENTED_EDGE ( 'NONE', *, *, #127, .T. ) ;
#115 = ADVANCED_FACE ( 'NONE', ( #56 ), #255, .T. ) ;
#116 = DIRECTION ( 'NONE',  ( -1.000000000000000000, -0.000000000000000000, -0.000000000000000000 ) ) ;
#117 = PERSON_AND_ORGANIZATION ( #218, #91 ) ;
#118 = DIRECTION ( 'NONE',  ( 0.000000000000000000, 0.000000000000000000, 1.000000000000000000 ) ) ;
#119 = CIRCLE ( 'NONE', #302, 5.000000000000000000 ) ;
#120 = CARTESIAN_POINT ( 'NONE',  ( -3.000000000000000000, 0.000000000000000000, 0.000000000000000000 ) ) ;
#121 = APPLICATION_PROTOCOL_DEFINITION ( 'international standard', 'config_control_design', 1994, #231 ) ;
#122 = VECTOR ( 'NONE', #278, 1000.000000000000000 ) ;
#123 = PLANE ( 'NONE',  #93 ) ;
#124 = APPROVAL ( #314, 'UNSPECIFIED' ) ;
#125 = CARTESIAN_POINT ( 'NONE',  ( 0.000000000000000000, 0.000000000000000000, 0.000000000000000000 ) ) ;
#126 = VERTEX_POINT ( 'NONE', #28 ) ;
#127 = EDGE_CURVE ( 'NONE', #45, #221, #215, .T. ) ;
#128 = ADVANCED_BREP_SHAPE_REPRESENTATION ( 'Q-AZHWP-10-405-M', ( #6, #318 ), #76 ) ;
#129 = CARTESIAN_POINT ( 'NONE',  ( 1.250000000000000444, 0.000000000000000000, 0.000000000000000000 ) ) ;
#130 = DIRECTION ( 'NONE',  ( 0.000000000000000000, 0.000000000000000000, 1.000000000000000000 ) ) ;
#131 = DATE_AND_TIME ( #75, #282 ) ;
#132 = LINE ( 'NONE', #232, #180 ) ;
#133 = DIRECTION ( 'NONE',  ( -0.000000000000000000, 0.000000000000000000, 1.000000000000000000 ) ) ;
#134 = FACE_BOUND ( 'NONE', #217, .T. ) ;
#135 = AXIS2_PLACEMENT_3D ( 'NONE', #185, #32, #188 ) ;
#136 = COORDINATED_UNIVERSAL_TIME_OFFSET ( 8, 0, .AHEAD. ) ;
#137 = CARTESIAN_POINT ( 'NONE',  ( 1.250000000000000444, 0.000000000000000000, 0.000000000000000000 ) ) ;
#138 = EDGE_CURVE ( 'NONE', #150, #301, #132, .T. ) ;
#139 = EDGE_CURVE ( 'NONE', #90, #165, #253, .T. ) ;
#140 = CLOSED_SHELL ( 'NONE', ( #115, #103, #233, #145, #326, #15, #85, #325, #31, #108 ) ) ;
#141 = FACE_OUTER_BOUND ( 'NONE', #276, .T. ) ;
#142 = ORIENTED_EDGE ( 'NONE', *, *, #48, .F. ) ;
#143 = CARTESIAN_POINT ( 'NONE',  ( 3.000000000000000000, 0.000000000000000000, 12.69999999999999929 ) ) ;
#144 = VERTEX_POINT ( 'NONE', #288 ) ;
#145 = ADVANCED_FACE ( 'NONE', ( #30 ), #4, .F. ) ;
#146 = PERSON_AND_ORGANIZATION ( #218, #91 ) ;
#147 = FACE_BOUND ( 'NONE', #96, .T. ) ;
#148 = EDGE_CURVE ( 'NONE', #36, #165, #209, .T. ) ;
#149 = ORIENTED_EDGE ( 'NONE', *, *, #138, .F. ) ;
#150 = VERTEX_POINT ( 'NONE', #78 ) ;
#151 = PRODUCT_DEFINITION_FORMATION_WITH_SPECIFIED_SOURCE ( 'ANY', '', #280, .NOT_KNOWN. ) ;
#152 = COORDINATED_UNIVERSAL_TIME_OFFSET ( 8, 0, .AHEAD. ) ;
#153 = CIRCLE ( 'NONE', #11, 12.69999999999999929 ) ;
#154 = ORIENTED_EDGE ( 'NONE', *, *, #315, .F. ) ;
#155 = DIRECTION ( 'NONE',  ( -1.000000000000000000, -0.000000000000000000, -0.000000000000000000 ) ) ;
#156 = DIRECTION ( 'NONE',  ( -1.000000000000000000, -0.000000000000000000, -0.000000000000000000 ) ) ;
#157 = CARTESIAN_POINT ( 'NONE',  ( -1.250000000000000222, 0.000000000000000000, 0.000000000000000000 ) ) ;
#158 = CARTESIAN_POINT ( 'NONE',  ( -3.000000000000000000, 1.555301434917138433E-15, -12.69999999999999929 ) ) ;
#159 = EDGE_LOOP ( 'NONE', ( #142, #114, #251, #335 ) ) ;
#160 = AXIS2_PLACEMENT_3D ( 'NONE', #252, #101, #130 ) ;
#161 = LINE ( 'NONE', #163, #178 ) ;
#162 = ORIENTED_EDGE ( 'NONE', *, *, #224, .T. ) ;
#163 = CARTESIAN_POINT ( 'NONE',  ( -1.614212418857619014, 0.000000000000000000, 12.69999999999999929 ) ) ;
#164 = DIRECTION ( 'NONE',  ( -1.000000000000000000, -0.000000000000000000, -0.000000000000000000 ) ) ;
#165 = VERTEX_POINT ( 'NONE', #54 ) ;
#166 = CC_DESIGN_PERSON_AND_ORGANIZATION_ASSIGNMENT ( #212, #107, ( #294 ) ) ;
#167 = AXIS2_PLACEMENT_3D ( 'NONE', #312, #155, #111 ) ;
#168 = EDGE_CURVE ( 'NONE', #144, #90, #8, .T. ) ;
#169 = ORIENTED_EDGE ( 'NONE', *, *, #66, .T. ) ;
#170 = DATE_AND_TIME ( #227, #33 ) ;
#171 = CARTESIAN_POINT ( 'NONE',  ( -1.614212418857619014, 0.000000000000000000, 0.000000000000000000 ) ) ;
#172 = ORIENTED_EDGE ( 'NONE', *, *, #168, .F. ) ;
#173 = AXIS2_PLACEMENT_3D ( 'NONE', #171, #100, #250 ) ;
#174 = CARTESIAN_POINT ( 'NONE',  ( -1.614212418857619014, 6.123233995736767268E-16, -5.000000000000000888 ) ) ;
#175 = EDGE_CURVE ( 'NONE', #179, #126, #119, .T. ) ;
#176 = DIRECTION ( 'NONE',  ( -1.000000000000000000, -0.000000000000000000, -0.000000000000000000 ) ) ;
#177 = CC_DESIGN_APPROVAL ( #279, ( #294 ) ) ;
#178 = VECTOR ( 'NONE', #295, 1000.000000000000000 ) ;
#179 = VERTEX_POINT ( 'NONE', #190 ) ;
#180 = VECTOR ( 'NONE', #77, 1000.000000000000000 ) ;
#181 = DIRECTION ( 'NONE',  ( 0.000000000000000000, 0.000000000000000000, -1.000000000000000000 ) ) ;
#182 = CALENDAR_DATE ( 2020, 22, 12 ) ;
#183 = CC_DESIGN_DATE_AND_TIME_ASSIGNMENT ( #235, #289, ( #207 ) ) ;
#184 = DIRECTION ( 'NONE',  ( 0.000000000000000000, 0.000000000000000000, 1.000000000000000000 ) ) ;
#185 = CARTESIAN_POINT ( 'NONE',  ( -3.000000000000000000, 0.000000000000000000, 0.000000000000000000 ) ) ;
#186 = APPROVAL_PERSON_ORGANIZATION ( #117, #124, #241 ) ;
#187 = PERSON_AND_ORGANIZATION ( #218, #91 ) ;
#188 = DIRECTION ( 'NONE',  ( 0.000000000000000000, 0.000000000000000000, 1.000000000000000000 ) ) ;
#189 = ORIENTED_EDGE ( 'NONE', *, *, #52, .F. ) ;
#190 = CARTESIAN_POINT ( 'NONE',  ( -3.000000000000000000, 6.123233995736766282E-16, -5.000000000000000000 ) ) ;
#191 = CARTESIAN_POINT ( 'NONE',  ( 3.000000000000000000, 0.000000000000000000, 0.000000000000000000 ) ) ;
#192 = ORIENTED_EDGE ( 'NONE', *, *, #168, .T. ) ;
#193 = APPROVAL_PERSON_ORGANIZATION ( #187, #279, #208 ) ;
#194 = EDGE_CURVE ( 'NONE', #150, #303, #153, .T. ) ;
#195 = CARTESIAN_POINT ( 'NONE',  ( -1.614212418857619014, 0.000000000000000000, 5.000000000000000888 ) ) ;
#196 = CIRCLE ( 'NONE', #50, 5.000000000000001776 ) ;
#197 = FACE_OUTER_BOUND ( 'NONE', #159, .T. ) ;
#198 = CC_DESIGN_PERSON_AND_ORGANIZATION_ASSIGNMENT ( #55, #105, ( #151 ) ) ;
#199 = APPROVAL_DATE_TIME ( #170, #86 ) ;
#200 = ORIENTED_EDGE ( 'NONE', *, *, #139, .T. ) ;
#201 = DIRECTION ( 'NONE',  ( 0.000000000000000000, 0.000000000000000000, 1.000000000000000000 ) ) ;
#202 = FACE_OUTER_BOUND ( 'NONE', #21, .T. ) ;
#203 = CIRCLE ( 'NONE', #246, 5.000000000000000000 ) ;
#204 = ORIENTED_EDGE ( 'NONE', *, *, #52, .T. ) ;
#205 = ORIENTED_EDGE ( 'NONE', *, *, #194, .T. ) ;
#206 = DIRECTION ( 'NONE',  ( 1.000000000000000000, 0.000000000000000000, 0.000000000000000000 ) ) ;
#207 = PRODUCT_DEFINITION ( 'UNKNOWN', '', #151, #99 ) ;
#208 = APPROVAL_ROLE ( '' ) ;
#209 = LINE ( 'NONE', #316, #219 ) ;
#210 = DIRECTION ( 'NONE',  ( -1.000000000000000000, -0.000000000000000000, -0.000000000000000000 ) ) ;
#211 = APPROVAL_PERSON_ORGANIZATION ( #146, #86, #333 ) ;
#212 = PERSON_AND_ORGANIZATION ( #218, #91 ) ;
#213 = DIRECTION ( 'NONE',  ( 0.000000000000000000, 0.000000000000000000, 1.000000000000000000 ) ) ;
#214 = DIRECTION ( 'NONE',  ( 1.000000000000000000, 0.000000000000000000, 0.000000000000000000 ) ) ;
#215 = CIRCLE ( 'NONE', #323, 5.000000000000000888 ) ;
#216 = CYLINDRICAL_SURFACE ( 'NONE', #225, 5.000000000000000888 ) ;
#217 = EDGE_LOOP ( 'NONE', ( #309, #284 ) ) ;
#218 = PERSON ( 'UNSPECIFIED', 'UNSPECIFIED', 'UNSPECIFIED', ('UNSPECIFIED'), ('UNSPECIFIED'), ('UNSPECIFIED') ) ;
#219 = VECTOR ( 'NONE', #234, 1000.000000000000000 ) ;
#220 = CARTESIAN_POINT ( 'NONE',  ( 3.000000000000000000, 0.000000000000000000, 0.000000000000000000 ) ) ;
#221 = VERTEX_POINT ( 'NONE', #222 ) ;
#222 = CARTESIAN_POINT ( 'NONE',  ( -1.250000000000000222, 0.000000000000000000, 5.000000000000000888 ) ) ;
#223 = AXIS2_PLACEMENT_3D ( 'NONE', #157, #13, #244 ) ;
#224 = EDGE_CURVE ( 'NONE', #144, #36, #196, .T. ) ;
#225 = AXIS2_PLACEMENT_3D ( 'NONE', #62, #37, #321 ) ;
#226 = DIRECTION ( 'NONE',  ( 1.000000000000000000, 0.000000000000000000, 0.000000000000000000 ) ) ;
#227 = CALENDAR_DATE ( 2020, 22, 12 ) ;
#228 = DIRECTION ( 'NONE',  ( -0.000000000000000000, 0.000000000000000000, 1.000000000000000000 ) ) ;
#229 = UNCERTAINTY_MEASURE_WITH_UNIT (LENGTH_MEASURE( 1.000000000000000082E-05 ), #17, 'distance_accuracy_value', 'NONE');
#230 = DIRECTION ( 'NONE',  ( -1.000000000000000000, -0.000000000000000000, -0.000000000000000000 ) ) ;
#231 = APPLICATION_CONTEXT ( 'configuration controlled 3d designs of mechanical parts and assemblies' ) ;
#232 = CARTESIAN_POINT ( 'NONE',  ( -1.614212418857619014, 1.555301434917138433E-15, -12.69999999999999929 ) ) ;
#233 = ADVANCED_FACE ( 'NONE', ( #263 ), #60, .F. ) ;
#234 = DIRECTION ( 'NONE',  ( -1.000000000000000000, -0.000000000000000000, -0.000000000000000000 ) ) ;
#235 = DATE_AND_TIME ( #182, #16 ) ;
#236 = PRODUCT_RELATED_PRODUCT_CATEGORY ( 'detail', '', ( #280 ) ) ;
#237 = CYLINDRICAL_SURFACE ( 'NONE', #167, 5.000000000000000888 ) ;
#238 = DIRECTION ( 'NONE',  ( 0.000000000000000000, 0.000000000000000000, 1.000000000000000000 ) ) ;
#239 = DIRECTION ( 'NONE',  ( 0.000000000000000000, 0.000000000000000000, 1.000000000000000000 ) ) ;
#240 = ORIENTED_EDGE ( 'NONE', *, *, #315, .T. ) ;
#241 = APPROVAL_ROLE ( '' ) ;
#242 = DIRECTION ( 'NONE',  ( -1.000000000000000000, -0.000000000000000000, -0.000000000000000000 ) ) ;
#243 = LOCAL_TIME ( 17, 5, 47.00000000000000000, #136 ) ;
#244 = DIRECTION ( 'NONE',  ( 0.000000000000000000, 0.000000000000000000, -1.000000000000000000 ) ) ;
#245 = EDGE_LOOP ( 'NONE', ( #240, #331, #14, #249 ) ) ;
#246 = AXIS2_PLACEMENT_3D ( 'NONE', #129, #230, #1 ) ;
#247 = EDGE_CURVE ( 'NONE', #221, #126, #300, .T. ) ;
#248 = CIRCLE ( 'NONE', #257, 12.69999999999999929 ) ;
#249 = ORIENTED_EDGE ( 'NONE', *, *, #332, .F. ) ;
#250 = DIRECTION ( 'NONE',  ( 0.000000000000000000, 0.000000000000000000, 1.000000000000000000 ) ) ;
#251 = ORIENTED_EDGE ( 'NONE', *, *, #247, .T. ) ;
#252 = CARTESIAN_POINT ( 'NONE',  ( -3.000000000000000000, 0.000000000000000000, 0.000000000000000000 ) ) ;
#253 = CIRCLE ( 'NONE', #72, 5.000000000000000000 ) ;
#254 = DATE_TIME_ROLE ( 'classification_date' ) ;
#255 = CYLINDRICAL_SURFACE ( 'NONE', #69, 12.69999999999999929 ) ;
#256 = DIRECTION ( 'NONE',  ( -1.000000000000000000, 0.000000000000000000, -0.000000000000000000 ) ) ;
#257 = AXIS2_PLACEMENT_3D ( 'NONE', #191, #164, #238 ) ;
#258 = APPROVAL_DATE_TIME ( #131, #279 ) ;
#259 = FACE_OUTER_BOUND ( 'NONE', #297, .T. ) ;
#260 = VECTOR ( 'NONE', #210, 1000.000000000000000 ) ;
#261 = FACE_OUTER_BOUND ( 'NONE', #299, .T. ) ;
#262 = PLANE ( 'NONE',  #330 ) ;
#263 = FACE_OUTER_BOUND ( 'NONE', #44, .T. ) ;
#264 = EDGE_CURVE ( 'NONE', #221, #45, #270, .T. ) ;
#265 = CARTESIAN_POINT ( 'NONE',  ( -1.614212418857619014, 0.000000000000000000, 0.000000000000000000 ) ) ;
#266 = CC_DESIGN_PERSON_AND_ORGANIZATION_ASSIGNMENT ( #70, #97, ( #280 ) ) ;
#267 = DATE_AND_TIME ( #83, #26 ) ;
#268 = VERTEX_POINT ( 'NONE', #34 ) ;
#269 = CC_DESIGN_SECURITY_CLASSIFICATION ( #294, ( #151 ) ) ;
#270 = CIRCLE ( 'NONE', #223, 5.000000000000000888 ) ;
#271 = EDGE_LOOP ( 'NONE', ( #3, #274, #38, #334 ) ) ;
#272 = ORIENTED_EDGE ( 'NONE', *, *, #224, .F. ) ;
#273 = CIRCLE ( 'NONE', #88, 12.69999999999999929 ) ;
#274 = ORIENTED_EDGE ( 'NONE', *, *, #48, .T. ) ;
#275 = ORIENTED_EDGE ( 'NONE', *, *, #332, .T. ) ;
#276 = EDGE_LOOP ( 'NONE', ( #149, #205, #275, #327 ) ) ;
#277 = CIRCLE ( 'NONE', #135, 5.000000000000000000 ) ;
#278 = DIRECTION ( 'NONE',  ( -1.000000000000000000, -0.000000000000000000, -0.000000000000000000 ) ) ;
#279 = APPROVAL ( #104, 'UNSPECIFIED' ) ;
#280 = PRODUCT ( 'Q-AZHWP-10-405-M', 'Q-AZHWP-10-405-M', '', ( #329 ) ) ;
#281 = DIRECTION ( 'NONE',  ( 0.000000000000000000, 0.000000000000000000, 1.000000000000000000 ) ) ;
#282 = LOCAL_TIME ( 17, 5, 47.00000000000000000, #61 ) ;
#283 = AXIS2_PLACEMENT_3D ( 'NONE', #265, #39, #239 ) ;
#284 = ORIENTED_EDGE ( 'NONE', *, *, #175, .F. ) ;
#285 = CIRCLE ( 'NONE', #160, 12.69999999999999929 ) ;
#286 = AXIS2_PLACEMENT_3D ( 'NONE', #65, #242, #118 ) ;
#287 = SHAPE_DEFINITION_REPRESENTATION ( #79, #128 ) ;
#288 = CARTESIAN_POINT ( 'NONE',  ( 3.000000000000000000, 0.000000000000000000, 5.000000000000001776 ) ) ;
#289 = DATE_TIME_ROLE ( 'creation_date' ) ;
#290 = DIRECTION ( 'NONE',  ( -1.000000000000000000, -0.000000000000000000, -0.000000000000000000 ) ) ;
#291 = DIRECTION ( 'NONE',  ( 1.000000000000000000, 0.000000000000000000, 0.000000000000000000 ) ) ;
#292 = APPROVAL_DATE_TIME ( #51, #124 ) ;
#293 = FACE_OUTER_BOUND ( 'NONE', #271, .T. ) ;
#294 = SECURITY_CLASSIFICATION ( '', '', #110 ) ;
#295 = DIRECTION ( 'NONE',  ( -1.000000000000000000, -0.000000000000000000, -0.000000000000000000 ) ) ;
#296 = DIRECTION ( 'NONE',  ( 0.000000000000000000, 0.000000000000000000, 1.000000000000000000 ) ) ;
#297 = EDGE_LOOP ( 'NONE', ( #49, #306 ) ) ;
#298 = CARTESIAN_POINT ( 'NONE',  ( 3.000000000000000000, 0.000000000000000000, 0.000000000000000000 ) ) ;
#299 = EDGE_LOOP ( 'NONE', ( #169, #18 ) ) ;
#300 = LINE ( 'NONE', #195, #94 ) ;
#301 = VERTEX_POINT ( 'NONE', #158 ) ;
#302 = AXIS2_PLACEMENT_3D ( 'NONE', #120, #328, #296 ) ;
#303 = VERTEX_POINT ( 'NONE', #143 ) ;
#304 = PERSON_AND_ORGANIZATION ( #218, #91 ) ;
#305 = CC_DESIGN_PERSON_AND_ORGANIZATION_ASSIGNMENT ( #304, #47, ( #207 ) ) ;
#306 = ORIENTED_EDGE ( 'NONE', *, *, #127, .F. ) ;
#307 = CARTESIAN_POINT ( 'NONE',  ( 3.000000000000000000, 6.123233995736768255E-16, -5.000000000000001776 ) ) ;
#308 = EDGE_LOOP ( 'NONE', ( #68, #189 ) ) ;
#309 = ORIENTED_EDGE ( 'NONE', *, *, #102, .F. ) ;
#310 = AXIS2_PLACEMENT_3D ( 'NONE', #220, #12, #89 ) ;
#311 = CC_DESIGN_DATE_AND_TIME_ASSIGNMENT ( #267, #254, ( #294 ) ) ;
#312 = CARTESIAN_POINT ( 'NONE',  ( -1.614212418857619014, 0.000000000000000000, 0.000000000000000000 ) ) ;
#313 = APPLICATION_CONTEXT ( 'configuration controlled 3d designs of mechanical parts and assemblies' ) ;
#314 = APPROVAL_STATUS ( 'not_yet_approved' ) ;
#315 = EDGE_CURVE ( 'NONE', #303, #150, #248, .T. ) ;
#316 = CARTESIAN_POINT ( 'NONE',  ( -1.614212418857619014, 6.123233995736767268E-16, -5.000000000000000888 ) ) ;
#317 = EDGE_CURVE ( 'NONE', #36, #144, #46, .T. ) ;
#318 = AXIS2_PLACEMENT_3D ( 'NONE', #125, #201, #226 ) ;
#319 = COORDINATED_UNIVERSAL_TIME_OFFSET ( 8, 0, .AHEAD. ) ;
#320 = DIRECTION ( 'NONE',  ( 0.000000000000000000, 0.000000000000000000, -1.000000000000000000 ) ) ;
#321 = DIRECTION ( 'NONE',  ( 0.000000000000000000, 0.000000000000000000, 1.000000000000000000 ) ) ;
#322 = CARTESIAN_POINT ( 'NONE',  ( 3.000000000000000000, 0.000000000000000000, 0.000000000000000000 ) ) ;
#323 = AXIS2_PLACEMENT_3D ( 'NONE', #29, #291, #106 ) ;
#324 = CYLINDRICAL_SURFACE ( 'NONE', #283, 12.69999999999999929 ) ;
#325 = ADVANCED_FACE ( 'NONE', ( #141 ), #324, .T. ) ;
#326 = ADVANCED_FACE ( 'NONE', ( #113 ), #216, .F. ) ;
#327 = ORIENTED_EDGE ( 'NONE', *, *, #81, .F. ) ;
#328 = DIRECTION ( 'NONE',  ( -1.000000000000000000, -0.000000000000000000, -0.000000000000000000 ) ) ;
#329 = MECHANICAL_CONTEXT ( 'NONE', #231, 'mechanical' ) ;
#330 = AXIS2_PLACEMENT_3D ( 'NONE', #59, #214, #320 ) ;
#331 = ORIENTED_EDGE ( 'NONE', *, *, #138, .T. ) ;
#332 = EDGE_CURVE ( 'NONE', #303, #268, #161, .T. ) ;
#333 = APPROVAL_ROLE ( '' ) ;
#334 = ORIENTED_EDGE ( 'NONE', *, *, #247, .F. ) ;
#335 = ORIENTED_EDGE ( 'NONE', *, *, #102, .T. ) ;
ENDSEC;
END-ISO-10303-21;
